Voodoo Lady

By Ween

From the album Chocolate & Cheese

Tabbed by Drew Noakes


[riff]
          Am              C                 Am      C   G   D   C
|---------0---x-0---------0---x-0-|---------0---x---0---3---2-2-0-0-|
|---------1---x-1---------1---x-1-|---------1---x---1---3---3-3-1-1-|
|---------2---x-2---------0---x-0-|---------2---x---0---0---2-2-0-0-|
|---------2---x-2---------2---x-2-|---------2---x---2---0---0-0-2-2-|
|---------0---x-2---------3---x-3-|---------0---x---3---2-------3-3-|
|---------------------------------|---------------------3-----------|
  1 . + . 2 . + . 3 . + . 4 . + .   1 . + . 2 . + . 3 . + . 4 . + .

[bass riff]                       [bass bridge riff]
|-------------------|             |-------------------|
|.-----------------.|             |.-----------------.|
|.-----------------.|             |.---7-6-5---------.|
|--5---5---5---0-3--|             |--5-------5-0-3-4--|
   1 + 2 + 3 + 4 +                   1 + 2 + 3 + 4 +

[intro 1:bass riff twice]
[intro 2:guitar riff twice w/ bass riff]

[verse one]
Am            C
  Voodoo Lady
               Am        C    G     D  C
  Shaking that stick and drivin' me crazy
Am                C            Am    C G D C
  Your eyes looks red and hazy
Am           C              Am    C G D C
  Doin' that stuff that you do
Am    C                       Am     C G D C
  And messin' me up with your voodoo

[chorus]
D
You drive me crazy with that
F
Boogie oogie oogie oogie oogie
D
You drive me crazy with that
F      F      F
Boogie boogie boogie


[verse two]
Am              C           Am   C G D C
  Your lips are hot and spicy
Am                  C               Am    C G D C
  Servin' up red beans and rice, yeah
Am                    C                   Am    C G D C
  At midnight she's a howlin' and stompin'
Am                   C                   Am    C G D C
  Makin' love to the gators in the swampin'

[repeat chorus]

[solo part 1:verse riff three times]
[solo part 2:D and F from chorus]

[verse three]
Am           C             Am  C G D C
  I feel you now inside me
Am               C         Am  C G D C
  Never once did you deny me
Am           C              Am  C G D C
  Doin' that stuff that you do
Am             C                Am  C G D C
  Knockin' me out with your voodoo

[repeat chorus]

[verse three]
Am       C
  Voodoo lady
Am                   C
  Shakin' that stick drivin' me crazy
Am       C
  Voodoo lady

  Oh yeah

[bridge:strum each rapidly for half a bar]
|--------------------------------|
|-2-3-4-5-6-7-8-9-10-11-12-13-14-|
|-2-3-4-5-6-7-8-9-10-11-12-13-14-|
|-2-3-4-5-6-7-8-9-10-11-12-13-14-|
|-0-1-2-3-4-5-6-7-8--9--10-11-12-|
|--------------------------------|

[bass bridge:8 times -- mess with high A chord from guitar bridge for first two]


[guitar riff:twice]

[repeat verse one]
[repeat chorus:end abruptly on last F]




[alternative version of riff - contributed]
Am     C   Am   C   G   D  Fmajor7


          Am              C                 Am      C   G   D   Fmajor7
|---------0---x-0---------0---x-0-|---------0---x---0---3---2-2-0-0-|
|---------1---x-1---------1---x-1-|---------1---x---1---3---3-3-1-1-|
|---------2---x-2---------0---x-0-|---------2---x---0---0---2-2-2-2-|
|---------2---x-2---------2---x-2-|---------2---x---2---0---0-0-3-3-|
|---------0---x-2---------3---x-3-|---------0---x---3---2-----------|
|---------------------------------|---------------------3-----------|
  1 . + . 2 . + . 3 . + . 4 . + .   1 . + . 2 . + . 3 . + . 4 . + .