The HIV Song

By Ween

From the album Chocolate & Cheese


The HIV Song was posted on OLGA eons ago, and I've simply added another
guitar part to it. Gener plays the notes of the melody, while Deaner plays
the background rhythm guitar.

The HIV Song - by Ween

[riff:guitar 1]
|-7-7---------7-6-4-4-2-2-|-2-3-3--3-2-2-2------------------|
|-----4-7-4-7-------------|-----------------0-2b3-0-2b3-0-4-|
|-------------------------|---------------------------------|
|-------------------------|---------------------------------|
|-------------------------|---------------------------------|
|-------------------------|---------------------------------|

[riff:guitar 2]
  123+123+123+123+123+123+123+123+
|                                 |
| B   B   B   B   G   F#  C#  D#  |
|                                 |

[break]
|-----------------|
|-----------------|
|-----------------|
|---4-3-2---------|
|-2-------2-------|
|-----------0-1-2-|

[lyrics:repeat, alternating end of each riff]
AIDS
HIV