You Fucked Up

By Ween

From the album God Ween Satan -- The Oneness


[play intro riff four times - at end of first time, start singing]

You fucked up - You bitch
You really fucked up
You fucked up - You fucking nazi whore

[with chorus riff]
Well you dicked me over - But now you'll pay
you fucked up - aaaaaaahhh!



[verse riff]
|------------------------|------------------------|
|------------------------|------------------------|
|----------------------5-|----------------------5-|
|----------------------5-|----------------------5-|
|-2--2--2--2--2--------3-|-2--2--2--2--2--------3-|
|-0--0--3--0--0--5--0----|-0--0--3--0--0--5--0----| 
  1  +  2  +  3  +  4  +   1  +  2  +  3  +  4  +

|------------------------|------------------------|
|------------------------|------------------------|
|----------------------5-|------------------------|
|----------------------5-|----5--5--5--5--5--5--5-|
|-2--2--2--2--2--------3-|----5--5--5--5--5--5--5-|
|-0--0--3--0--0--5--0----|----3--3--3--3--3--3--3-|
  1  +  2  +  3  +  4  +   1  +  2  +  3  +  4  +

[chorus riff]
|----------------------------------------------|
|----------------------------------------------|
|-------------/-9----7---5---4---5--4--5--4--2-|
|-------------/-9----7---5---4---5--4--5--4--2-|
|-2---------2-/-7----5---3---2---3--2--3--2--0-|
|-0---------0----------------------------------|
..dicked me o - ver, but now you'll pay

|--------------------------------------|
|--------------------------------------|
|-----------/-9------------------------|
|-----------/-9------------------------|
|-2-------2-/-7------------------------|
|-0-------0----------------------------|
  you fucked up     aaaaaahhhhhhh!