Cover It With Gas (And Set It On Fire)

By Ween

From the EP Skycruiser


Bassline:
|----------|-----------|----------|
|----------|-----------|----------|
|----10----|----10-----|----------|
|-10------8|-8------10-|-7--8--9--|

[guitar]
|------------------------------|
|------7----------7------------|
|.-6---6-4----4---6-6---3-4-5-.|
|.-6---4-4----4---4-6---3-4-5-.|
|--4-----2----2-----4---1-2-3--|
|------------------------------|

[lyrics:i have no idea]
Well it's the hobble and the wobble and the gangrene
(Cover it with gas and set it on fire)
Well it's the hobble and the wobble and the gangrene
(Cover it with gas and set it on fire)

Well it's the non stop horswat kandywather
(Cover it with gas and set it on fire)
Well it's the non stop horswat kandywather
(Cover it with gas and set it on fire)