Birthday Boy

By Ween

From the album God Ween Satan - The Oneness

Tabbed by Drew Noakes


[main riff:strumming pattern]

  C       Am      /Am7\   F           C
|-0--0-0--0---0-0-0-0-0-|-1---1-1-1---0-|
|-1--1-1--1---1-1-1-1-1-|-1---1-1-1---1-|
|-0--0-0--2---2-2-0h2p0-|-2---2-2-2---0-|
|-2--2-2--2---2-2-2-2-2-|-3---3-3-3---2-|
|-3--3-3--0---0-0-0-0-0-|-3---3-3-3---3-|
|-----------------------|-1---1-1-1-----|


[bridge riff:strumming pattern]

  G#m7?               Dm  C         Am    F         C
|-7---7-x-x-5--|------1-|-0---0-x-x-0---|-1---1-x-x-0-|
|-4---4-x-x-4--|------3-|-1---1-x-x-1---|-1---1-x-x-1-|
|-4---4-x-x-4--|------2-|-0---0-x-x-2---|-2---2-x-x-0-|
|-4---4-x-x-4--|-3-2--0-|-2---2-x-x-2---|-3---3-x-x-2-|
|--------------|--------|-3---3-x-x-0---|-3---3-x-x-3-|
|--------------|--------|---------------|-1---1-x-x---|




Jesus Christ pain! Take one (muted noises)

[w/riff]
Yeah!      Pain
Last time I saw you I was holding your hand
And I couldn't wait for you to leave me
I knew right then that it was over and done
And I couldn't be-lieve that I was free-e
Help me now, I'm go-ing down
And I don't know if I'll be o-kay
I'll be a-round, I'll be in town
If you need a place to st-ay

[mini riff:]  C  Am    (1 bar total)

[w/riff]
When the wind blows and there's a chill in the air
I hope that someone is taking care of you
I'm all-right, yeah I'm really OK
Just so you know I'm always there for you
Help me now, I'm go-ing down
And I don't know if I'll be O-kay
I'll be a-round, I'll be in town
If you need a place to st-aaaay

(verse X 2)
(chorus X 1)