Big Jilm

By Ween

From the album Pure Guava

Tabbed by Jerm and Todd


[Riff:]
|--------------------------------------5-5-5--7-7-7--5-5-5--7-7-7--
|--------------------------------------5-5-5--7-7-7--5-5-5--7-7-7--
|--------------------------------------6-6-6--7-7-7--6-6-6--7-7-7--
|--------------------------------------7-7-7--7-7-7--7-7-7--7-7-7--
|-3-3-3-3--3-3-3-3--3-3-3-3--3-3-3-3---7-7-7--5-5-5--7-7-7--5-5-5--
|-1-1-1-0--1-1-1-0--1-1-1-0--1-1-1-0---5-5-5---------5-5-5---------

[w/riff]
Rollin' and a wheelin', stealin' and a dealin'    - Big Jilm
Bol weevil its a pleasel its a pleasel my weasel  - Big Jilm
Dreamin' and a schemin', screamin' and a bleedin' - Big Jilm 
Froggie in the meadow under the log               - Big Jilm
Rollin' and a wheelin', stealin' and a dealin'    - Big Jilm
Bol weevil its a pleasel its a pleasel my weasel  - Big Jilm
Big Jilm

[Break:]
|------------------------------------------------------------------
|------------------------------------------------------------------
|------------------------------------------------------------------
|-----------------3-3-3-3-3-3-3-3-----------------3-3-3-3-5-5-5-5--
|-5-5-5-5-5-5-5-5-1-1-1-1-1-1-1-1-5-5-5-5-5-5-5-5-1-1-1-1-3-3-3-3--
|-3-3-3-3-3-3-3-3-----------------3-3-3-3-3-3-3-3------------------

[w/riff]
Rollin' and a wheelin', stealin' and a dealin'    - Big Jilm
Bol weevil its a pleasel its a pleasel my weasel  - Big Jilm
Dreamin' and a schemin', screamin' and a bleedin' - Big Jilm 
Froggie in the meadow under the log               - Big Jilm
Big Jilm

[break]

[w/riff]
Do do do do dododo do do do - Big Jilm
Do do do do dododo do do do - Big Jilm
Do do do do