Super Mario Brothers Theme

From the Nintendo Game


[Part 1]
e|----------------|---0-3-5---3---------|
B|-1--------------|---------6---5---3---|
G|---0----2-4-3\2-|-0-------------5---4-| x2
D|-2---2--3-5-4\3-|-2-----3---2-----5---|
A|---3------------|---------3---3-------|
E|----------------|---------------------|


[Part 2]
e|-------------------------|--------------8---8-8--|
B|--8\7\6-4-5--------------|--8\7\6-4-5------------|
G|--5-----5-5-----5----5h7-|--5-----5-5---5---5-5--|
D|------------5h7----7-----|-----------------------|
A|-3-----------------------|-----------------------|
E|-------------------------|-----------------------|


e|-------------------------|-----------|
B|--8\7\6-4-5--------------|-----------|
G|--5-----5-5-----5----5h7-|--8--7--5--|
D|------------5h7----7-----|-----------|
A|-------------------------|--9--8--7--|
E|-------------------------|-----------|


[Part 3]
e|--------------------|-------------------|
B|-1-1--1--1/3--5-----|-1-1--1--1/3--5----|
G|-1-1--1--1-----5----|-1-1--1--1----5----|
D|-1-1--1--1/3--5-7-5-|-1-1--1--1/3--5----|
A|--------------------|-----------------3-|
E|--------------------|-------------------|

e|--------------------|-----------3-------|
B|-1-1--1--1/3--5-----|-5-5-5---5---------|
G|-1-1--1--1-----5----|-5---5-5-5---------|
D|-1-1--1--1/3--5-7-5-|--------------5----|
A|--------------------|-------------------|
E|--------------------|-------------------|


[Part 4]
e|-------------------------------------------------------|
B|------------------------------10-10-10-8---------------|
G|-9----------------10-10------------------10-9----------|
D|---10----------10-------10-9------------------10-------|
A|------10-10-11-12-------12-10-10-10-10-----------12-10-|
E|-8----8--8--8------------------------------------------|

e|-----------------------------------------------------|
B|-----------------------------------------------------|
G|-9----------------10-10-------10-10-10-9-------------|
D|---10----------10-------10-9-------------12-10-------|
A|------10-10-11-12-------12-10-10-10-10----------10---|
E|-8----8--8--8--------------------------------------8-|


[Part 5]
e|---------------------------|
B|-1--------0----------------|
G|---0----2--2-1-3-1---------|
D|-2---2--3----3-----5p4h5~~-|
A|---3---------------3-------|
E|---------------------------|


The order of the song goes:

[Part 1]
[Part 2]
[Part 3]
[Part 1]
[Part 4]
[Part 3]
[Part 5]

Based on a tab by Mike Beeson & Lee Bolling with changes by Drew Noakes.