Porpoise Head

By Porno For Pyros

From the album Good God's Urge


[verse riff:]
|--------------------------|
|--------------------------|
|--------------------------|
|-6-----9-----6-----5~~~~~-|
|---7-----7-----7----------|
|-----0-----0-----0--------|
  Here I lay waiting for the bubbles to settle
  I'm going down low where your sleep meets your mental
  Two tries at killing me, they couldn't do it
  I ran down the road with no shoes and no jacket

[chorus riff:]
|-------------------------------------------------|
|-------------------------------4-----------------|
|-------6-----------3---------4---4---------4-----|
|-----7---7-------4---4-----4-------4-----5---5---|
|---7-------7---4-------4-2-------------5-------5-|
|-5-----------2-----------------------3-----------|
  Here I go dive away,    watch me dive away

[with verse riff]
Hey porpoise head
Oh porpoise head

[interlude riff 1]
|---5-5-----5-5-----5-5-----5-5-|
|---5-5-----5-5-----5-5-----5-5-|
|---5-5-----5-5-----5-5-----5-5-|
|-5-------5-------5-------5-----|
|-------------------------------|
|-------------------------------|

[with verse riff]
I know young boys, they all want to be Dad
Don't think it's madder to be a genius
Give me a lover who won't give me trouble
Some sexy dreams to chew on these bubbles

[with chorus riff]
Here I go dive away, watch me dive away

[with verse riff]
Hey porpoise head
Oh porpoise head

[interlude riff 2]
|---5-5-----5-5-----6-6-----6-6-|
|---5-5-----5-5-----5-5-----5-5-|
|---5-5-----5-5-----5-5-----5-5-|
|-5-------5-------5-------5-----|
|-------------------------------|
|-------------------------------|
  [play interlude riff 2 four times]
  [then vocals with interlude riff 2 twice]
  I set sail with a tickle in my tail

[interlude riff 3]
|-------------------------------|-------------------------------|
|---7-7-----7-7-----7-7-----7-7-|-8-------8-------8-------------|
|---7-7-----7-7-----7-7-----7-7-|-8-------8-------8-------------|
|---7-7-----7-7-----7-7-----7-7-|-8-------8-------8-------------|
|-5-------5-------5-------5-----|-6-------6-------6-------------|
|-------------------------------|-------------------------------|
  I smell the bleach on the       thin white sheets

[with verse riff]
Here I lay waiting for the bubbles to settle
I'm going down low where your sleep meets your mental
Two bags in Lilly's hands, just for the morning
Into the bathroom with cotton for swabbing

[with chorus riff]
Here I go dive away, watch me dive away

[with verse riff]
Hey porpoise head
Oh porpoise head
Hey porpoise head
Oh porpoise head
La de da, la de dee
La de da, la de dee

Fade...