100 Ways

By Porno For Pyros

From the album Good God's Urge

Tabbed by Drew Noakes


[riff]
   E                   F#*               
|------0---0-0-2p0--|------0---0-0-2p0--|
|------0---0-0-0-0--|------0---0-0-0-0--|
|--1---1---1-1-1-1--|------3---3-3-3-3--|
|--2---2---2-2-2-2--|--4---4---4-4-4-4--|
|--2----------------|--4----------------|
|--0----------------|--2----------------|

E                                F#                        E   
   You didn't have to give your  necklace to me before I   left
   Now I lay awake and           think how very smart you  were
   Thought about you every       day...

D                     E                             D
   I hear the         rain coming in from miles a - way
   air is as          clean as your skin is to my   face
   thought about you  every day...

G                          A 
          One hundred      ways
  I thought about you and  me 100 ways
          One hundred      ways

[riff twice]

E                       F#                                E
   Now I lay awake and  dream, you're right above my      face
     Look in to my      eyes the way you do, don't look a-way
     Thought about you  every day

D                     E                      D  
   Birds build their  homes, right above my  head
       They make the  same, kind of sounds   you do
   When we're laying  in my bed...


G                          A 
          One hundred      ways
  I thought about you and  me 100 ways
          One hundred      ways


[break]
   B*      Asus2          E
|--0---0----0--0--0---0--0--|--0---0----0--0--0---0--0--|
|--0---0----0--0--0---0--0--|--0---0----0--0--0---0--0--|
|--4---4----2--2--2---2--2--|--1---1----1--1--1---1--1--|
|--4---4----2--2--2---2--2--|--2---2----2--2--2---2--2--|
|--2---2----0--0--0---0--0--|--2---2----2--2--2---2--2--|
|---------------------------|--0---0----0--0--0---0--0--|
   Naaaaa   na-na-na  na na    naaaa    Na-na-na--na-na-
   naaa     na na na  na na    naaa     na nya nar etc...


[riff twice]


[For this verse, strum chord once and let ring]

E                            F#                
  And if i had my            way, when I woke up
  In the morning               I would read and write
  before i ever drew the     shade, I would kiss you
  before you opened up your  eyes

[regular strumming]

D                     E                      D  
   Birds build their  homes, right above my  head
       They make the  same, kind of sounds   you do
   When we're laying  in my bed...

G                          A 
          One hundred      ways
  I thought about you and  me 100 ways
          One hundred      ways

E [let ring]