Hey

By The Pixies

From the album Doolittle


Please note that all the below tab is one fret high... sorry.

[intro]

Bass
|---|----------------------------------------------|
|---|:--------------------------------------------:|
|---|:-1-2-3-3-3--4-5-6-6-6-----------------------:|
|-3-|------------------------2-3-4-4-4--1-2-3-3-3--|

Lead - Guitar 1
|----------------3-----|---------------3-3----|----------------3-3---|-(3)-----(3)--3-----|
|-(4)-------(4)----4---|-(3)---------------3--|-(4)-------(4)------3-|--3h4-4-3-3h4---4---|
|--3h5-5--3--3h5-----3-|--3h4-4--3-3h4--------|--3h5-5--3--3h5-------|------------------3-|
|----------------------|----------------------|----------------------|--------------------|
|----------------------|----------------------|----------------------|--------------------|
|----------------------|----------------------|----------------------|--------------------|

[verse 1]
Hey,   Been tryin' to meet you
Hmmmmm

Hey, must be a devil between us or whores in my head
whores or whores in my bed
Where have you been
If you go I will surely die

We're chained... etc...

Lead - Guitar 2
|---------------|---------------|---------------|---------------|
|-4-------------|-3-------------|---------------|---------------|
|---5-3-0-------|---4-----------|---------------|---------------|
|---------3h4-5-|-----5-3-3h4-5-|-3-------------|-3-------------|
|---------------|---------------|---6-3-1-1h2-3-|---6-3-1-1h2-3-|
|---------------|---------------|---------------|---------------|

[Repeat twice then main riff and guitar 2 solo over]

Uh, said the man to the lady
Oooh Uh said the lady to the man she adored
and the whores like a choir
Go uhh all night and mary aint you tired of this, uh
Its the sound, like a mother makes when her baby breaks

We're chained (etc... again...)

[More solo]

[chorus]