Here Comes Your Man

By The Pixies

From the album Doolittle


[Intro riff 3 times]
|-------------------------------------------|
|-------------------------------------------|
|-------------0-----------------------------|
|-0--0--4--4------------------------0--2--0-|
|----------------0------2--0--0--4----------|
|-------------------3-----------------------|


D                    A
  Outside there's a boxcar waiting
Em             G
  Outside the families too
D             A
  Out by the fire breathing
Em           G
  Outside we wait til face turns blue

D             A
  I know the nervous walking[?]
Em            G
  I know the dirty bed hangs[?]
D             A
  Out by the boxcar waiting
Em                G
  Take me way to nowhere place


[Bridge]
Bm                    G               A
  There is a wake so long (so long so long)
                 D
You never wait so long


[Chorus -- play with intro riff]
G  A                D 
    Here comes your man [3 times]


[Solo]
--2--0---------------------0----2--0---------2--2--0------0---
--------3---3--2--2--2>>3-------------3---3------------3------
--------------------------------------------------------------
--------------------------------------------------------------
--------------------------------------------------------------
--------------------------------------------------------------
[Repeat solo into verses]

They shake on the boxcar moving[?]
They shake to the land that's falling down
Is a wind makes-a palms start blowing
A big big storm fall and break my crown

[Bridge]
[Chorus]

[Chords through solo:  D  A  Em  G ]

[Bridge]
[Repeat chorus to finish on D]