Homesick

By Kings of Convenience

From the album Riot on an Empty Street


The song is fingerpicked loosely around these chords.  Capo on 1st fret.

[part 1]

|--0--0--0--3--1--3--0--|
|--1--0--1--3--1--3--1--|
|--0--0--2--0--2--0--0--|
|--2--0--2--0--3--0--2--|
|--3--2--0--2--3--2--3--|
|-----------3--1--3-----|

[part 2]

|--0--0--1--0--3--1--3--|
|--1--1--3--1--3--1--3--|
|--2--0--2--2--0--2--0--|
|--3--2--0--2--0--3--0--|
|-----------0--2--3--2--|
|--------------3--1--3--|

[part 3]

|--0--0--0--0--|
|--1--1--3--1--|
|--2--2--0--2--|
|--0--2--0--3--|
|-----0--2--3--|
|--------3--1--|

[part 4]

|--0--0--0--0--|
|--1--1--3--1--|
|--2--0--0--2--|
|--3--2--0--3--|
|--3--3--2--3--|
|--1-----3--1--|



Order of playing:

[part 1] x3
[part 2]
[part 1]
[part 2]
[part 1] x3
[part 2]
[part 1]
[part 2]
[part 3]
[part 1] x2
[part 4]
[part 1]