Then She Did

By Jane's Addiction

From the album Ritual de lo Habitual



There is already a version of this in the archive, but this is way different and more 
complete I think.  I recommend listening to the CD to pick up the rhythms and subtle 
strumming nuances.  The transcription is all my own work.  Take it or leave it.  

intro:    let ring                   (guitar clean w/chorus and bridge pickup)
                                                                   
                                                           *repeat once
e-----0--0--0--0--0-----0--0--0-----0--0--0-----0-----0--0--0-----0--0--
B-----5--5--5--7--5-----5--5--5-----3--3--3-p0--0-----0--0--0-----5--5--
G-----6--6--6--6--6-----6--6--6-----5--5--5-----5-----5--5--5-----6--6--
D-----6--6--6--6--6-----6--6--6-----4--4--4-----4-----4--4--4-----6--6--
A--0-----------------0-----------5--5--5--5-----5--5--5--5--5--0--------
E-----------------------------------------------------------------------

                                                           *repeat whole
e--0--0--0--7--7--7--7--7--7--5--5--5--5-p0--0--0--0--0--figure 3 times.
B--5--7--5--5--5--5--5--5--5--3--3--3--3-----3--0--0--0---on the third--
G--6--6--6--6--6--6--6--6--6--5--5--5--5-----5--5--4--0---time stop
D--6--6--6--6--6--6--6--6--6--4--4--4--4-----4--5--5--2---after the last
A---------------------------------------------------------pull off-----
E-----------------------------------------------------------------------

Then:

e--------------------------------------------------------0--------------
B--------------------------------------------------------0--------------
G--------------------------------------------------------6--------------
D--3--3--1-----------------------------------------------7--------------
A-----------0--0--0--0--0--0--0--0--0--0--0--3--0--3--0--7--0--0--0--0--
E--------------------------------------------------------5--------------

e-----------------------------------------------------------------------
B-----------------------------------------------------------------------
G-----------------------------------------------------------------------
D--------------------3--3--1--------------------------------------------
A--0--0--0--0--0--0-----------0--0--0--0--0--0--0--0--0--0--0--3--0--3--
E-----------------------------------------------------------------------

e-----------------------------------------------------------------------
B-----------------------------------------------------------------------
G-----------------------------------------------------------------------
D-----5/7-----------------5/7-----5--------------5/7-----5--------4-----
A--0-------0--0--0--0--0-------0-----0--0--0--0-------0-----0--0-----0-
E-----------------------------------------------------------------------

e-----------------------------------------------------------------------
B-----------------------------------------------------------------------
G-----------------------------------------------------------------------
D--5--3-----------------5/7-----------------5/7-----5--------------5/7--
A--------0--0--0--0--0-------0--0--0--0--0-------0-----0--0--0--0-------
E-----------------------------------------------------------------------

e-----------------------------------------0-------------------0-------0-
B-----------------------------------------0-------------------0-------0-
G-----------------------------------------4/6-----------------4/6-----4-
D-----5--------4-----5--3-----------------5/7-----------------5/7-----5-
A--0-----0--0-----0--------0--0--0--0--0-------0--0--0--0--0-------0----
E-----------------------------------------------------------------------

e--------------0-------0--------0-----0--0-----------------0------------
B--------------0-------0--------0-----0--0-----------------0------------
G--------------4/6-----4--------3-----4--2-----------------4/6----------
D--------------5/7-----5--------4-----5--3-----------------5/7----------
A--0--0--0--0-------0-----0--0-----0--------0--0--0--0--0-------0--0--0-
E-----------------------------------------------------------------------

e--------0----------------0-------0--------0-----0--0-------------------
B--------0----------------5/7-----5--------4-----5--3-------------------
G--------4/6--------------4/6-----4--------3-----4--2-------------------
D--------5/7--------------5/7-----5--------4-----5--3-------------------
A--0--0-------0--0--0--0-------0-----0--0-----0--------0--0--0--0--0----
E-----------------------------------------------------------------------
"I went to see your pictures!"
e--0-------------------0-------0--------------0-------0--------0-----0--
B--5/7-----------------5/7-----5--------------5/7-----5--------4-----5-
G--4/6-----------------4/6-----4--------------4/6-----4--------3-----4-
D--5/7-----------------5/7-----5--------------5/7-----5--------4-----5-
A-------0--0--0--0--0-------0-----0--0--0--0-------0-----0--0-----0-----
E-----------------------------------------------------------------------

e--0-----------------0-------------------0-------0-------------0--------
B--3-----------------5/7-----------------5/7-----5-------------5/7------
G--2-----------------4/6-----------------4/6-----4-------------4/6------
D--3-----------------5/7-----------------5/7-----5-------------5/7-----
A-----0--0--0--0--0-------0--0--0--0--0-------0-----0--0-0--0-------0--
E-----------------------------------------------------------------------

e--0--------0-----0--0-----------------0-------------------0-------0----
B--5--------4-----5--3-----------------5/7-----------------5/7-----5----
G--4--------3-----4--2-----------------4/6-----------------4/6-----4----
D--5--------4-----5--3-----------------5/7-----------------5/7-----5----
A-----0--0-----0--------0--0--0--0--0-------0--0--0--0--0-------0-------
E-----------------------------------------------------------------------

e--------------0-------0--------0-----0--0-----------------0------------
B--------------5/7-----5--------4-----5--3-----------------5/7----------
G--------------4/6-----4--------3-----4--2-----------------4/6----------
D--------------5/7-----5--------4-----5--3-----------------5/7----------
A--0--0--0--0-------0-----0--0-----0--------0--0--0--0--0-------0--0--0-
E-----------------------------------------------------------------------

e--------0-------0--------------0-------0--------0-----0--0-------------
B--------5/7-----5--------------5/7-----5--------4-----5--3-------------
G--------4/6-----4--------------4/6-----4--------3-----4--2-------------
D--------5/7-----5--------------5/7-----5--------4-----5--3------------
A--0--0-------0-----0--0--0--0-------0-----0--0-----0--------0--0--0--0-
E-----------------------------------------------------------------------
"-born! But you won't ever listen, I'll bet!" (guitar w/dist)
e-----------------------------------0--5--------------------5----------
B--3--3--3--------------------2-----0--5--------------------5--5--------
G--2--2--2--------0--2-p0--------2--6--6--------------------6-----6-----
D--0--0--0-----2-----------2--------7--7--------------------7-----------
A--0--0--0--3-----------------------7-----7--7--------7--7--7-----------
E-----------------------------------5-----5--5--7--7--5--5--5-----------

e--x--x--0-----0--------7--7--7--7--7--9---9---9---9---9\--------------
B--x--x--3--------3-----8--8--8--8--8--10--10--10--10--10\-------------
G--x--x--2--2--------2--7--7--7--7--7--9---9---9---9---9\----4/6-------
D--x--x--0---------------------------------------------------5/7--------
A--x--x--0---------------------------------------------------5/7--------
E--x--x------------------------------------------------------3/5--------
                  *for vocals [repeat part under these brackets 2x more]
e-----------------------------------------------------------------------
B-----------------------------------------------5/7--5--4--5--3---------
G---4/6---4---4/6---4--3--4--2---4/6---4/6--4---4/6--4--3--4--2---------
D---5/7---5---5/7---5--4--5--3---5/7---5/7--5---5/7--5--4--5--3---------
A---5/7---5---5/7---5--4--5--3---5/7---5/7--5---------------------------
E---3/5---3---3/5---3--2--3--1---3/5---3/5--3---3/5--3--2--3--1---------
*"Burnt out grass scorched by the sun-" Then:"The buildings remain-"
e-----------------------------------0-----5--------------------5--------
B--3--3--3--------------------2-----0-----5--------------------5--5-----
G--2--2--2--------0--2-p0--------2--6-----6--------------------6-----6--
D--0--0--0-----2-----------2--------7-----7--------------------7--------
A--0--0--0--3-----------------------7--7-----------------7--7--7--------
E-----------------------------------5--5-----7--7--7--7--5--5--5--------

e--x--x--0-----0--------7--7--7--9---9---9---9---9\---3--0-----0--------
B--x--x--3--------3-----8--8--8--10--10--10--10-10\---3--0-----0-------
G--x--x--2--2--------2--7--7--7--9---9---9---9---9\---0--0--6--6-------
D--x--x--0--------------------------------------------0--2--7--7--------
A--x--x--0--------------------------------------------2--2--7--7--5--7--
E--x--x-----------------------------------------------3--0--5--5--------

e-----------3--0-----0-----------------3--0-----0-----------------3--0--
B-----------3--0-----0-----------------3--0-----0-----------------3--0--
G-----------0--0--6--6-----------------0--0--6--6-----------------0--0--
D--5--7-----0--2--7--7--------5--7-----0--2--7--7--------5--7-----0--2--
A--------7--2--2--7--7--5--7--------7--2--2--7--7--5--7--------7--2--2--
E-----------3--0--5--5-----------------3--0--5--5-----------------3--0-

e-----0-----------------3--0--3--0--------------------------------------
B-----0-----------------3--0--3--0--------------------------------------
G--6--6-----------------0--0--0--5--------------------------------------
D--7--7--------5--7-----0--2--0--5--------------------------------------
A--7--7--5--7--------7--2--2--2--3--------------------------------------
E--5--5-----------------3--0--3-----------------------------------------

There is a little bit more to this song of course, but this is the gist of it.
It goes into an abstract thing where Dave Navarro just plays little cords every 
now and then to add to the ambiance.  The song ends with parts that are already
tabbed out. I hope you enjoy this piece.  It's a special song in the JA archive 
and can make a pretty acoustic solo piece for impressing your girlfriend or 
whatever.  

Transcribed by:  Thor Rundquist

[Lyrics]

Now her paints are dry...
And I looked outside...
At the corner boys...

Ayh, oh, where did you go?
I don't know.

I went to see your pictures...
I spread them across the floor...
So this is where they are shown...
Now they're probably saying to you,
If you keep it up you'll be born.

But you won't ever listen,
I'll bet...

Burnt out, grass scorched by the sun.
The buildings remain.

We will beat them all to dust,
I'll bet...

Pulled from a headless shell
That blinked on and off, Hotel.
Now the nameless dwell.

They hold your key and turn your knob,
I'll bet...

Will you say hello to my ma?
Will you pay a visit to her?
She was an artist, just as you were.
I'd have introduced you to her.

She would take me out on Sundays.
We'd go laughing through the garbage.
She repaired legs like a doctor
On the kitchen chairs we sat on.

She was unhappy, just as you were.
Unhappy, just as you were.
Unhappy, just as you were.
Unhappy, just as you were...