Ugly In The Morning

By Faith No More

From the album King For A Day, Fool For A Lifetime

Tabbed by Eric Parsons


---------------------------------------------------2----------------
---5--------3---------4--------------4-------------------4----------
---5--------3---------4------------------4-------------------4------
---3--------3---------2----------2-------------2--------------------
--------------------------------------------------------------------
--------------------------------------------------------------------


--------------------------------------------------------------------
-----5------------3---------------4---4---4-------------------------
-----5------------3---------------4---4---4-------------------------
-----3--------------------3-------2---2---2-------------------------
--------------------------------------------------------------------
----------------------------------0---0---0-------------------------



ring  out                                      ring out
---------------------------------------------------------2----------
---5------5-------3-----3----4--------------4-----------------4-----
---5--------5-----3-----3----4------------------4-----------------4-
---3---3-----3----3-----3----2----------2-------------2-------------
--------------------------------------------------------------------
--------------------------------------------------------------------


then there is this riff I think with a flanger or some chorus

---------------------------------------
---------------------------------------    played really fast
---------------------------------------
----------------------------3---3---3--
------------1---4------2---------------
0-0-0-3-0-0---0---0--0-----------------


-----------------------------------------------------
-----------------------------------------------------
-----------------------------------------------------
--------------------------3-------3--------------3---
---------5-----5----------1-------1--------------1---
 --0--0--3--0--3--0--1--1---0--1-----0--1--0--1------

   WHAT YOU MEANT....!

-----------------------------------------
-----------------------------------------
-----------------------------------------
--5------------3--3--4--4--5--5--6--6----
--3--5---6--6--1--1--2--2--3--3--4--4----
-----3---4--4----------------------------
    bla bla bla   


back into the 2nd verse is 
------------------------------------------------------------------
-16--------------16-------------17----15---16---------------16----
-16--------16-----------16------17----15---16----------16---------
-14--14-------------14------14--15----15---14------------------14-
--------14------------------------------------------14------------
-----------------------------------------------0--0-------0-------

More variations like this

end
-------------------------------------
-------------------------------------
-----------------------------5--5--5-
------3---------6-----4------3--3--3-
------1---------4-----2--------------
---------0--0-----0--0---0-----------

then put these power chords before that part to get the ending 

------------
------------
------------
------------
-5--4--3--2-
-3--2--1--0-   very very very fast.