Tomboy

By Bettie Serveert

From the compilation album What's Up Matador?


Tablature at bottom of file.

---8<---cut here--->8---

[Verse Riff]
From where I stand, I can see
They've got the upper hand on me
Reminds me of - this world outlasts several changes
Much to fast for me

And when they call out, will I hear them?
And when they fall out, will I see them?

[Bridge Riff w/ ending one]

[Verse Riff]
This yellow light, on the crowd
And colours way to loud to see
Reveals their drive, we could change it
Try to rearrange it
Call me a tomboy
And I love it
Cos only a tomboy could stand above it
What's simply changing

[Bridge Riff w/ ending two]

[Verse Riff - build up slowly]
This yellow light, on the crowd
And colours way to loud to see
Reveals their drive, we could change it
Try to rearrange it
Call me a tomboy
And I love them
Cos only a tomboy could forget them

They call me a tomboy
And I love them
Cos only a tomboy could stand above it
What's simply changing

[Bridge Riff w/ solo outro]

-----8<---cut here--->8---

[verse riff]

|-2-------2-----2-2---2---2---x-x-|---------2-----2-2-------2---x-x-|
|-3-------3-----3-3---3---3---x-x-|---------3-----3-3-------3---x-x-|
|-2-------2-----2-2---2---2---x-x-|---------4-----4-4-------4---x-x-|
|-0-------0-----0-0---0---0---x-x-|---------4-----4-4-------4---x-x-|
|---------------------------------|-2-------------------2-----------|
|---------------------------------|---------------------------------|
  1 . + . 2 . + . 3 . + . 4 . + .   1 . + . 2 . + . 3 . + . 4 . + . 


|---------------------------------|---------------------0---0-0-0-0-|
|---------------------------------|-----------------0---0---0-0-0-0-|
|---------------------------------|---------0---0---0---0---0-0-0-0-|
|---------0---------------0-------|-2---2---2---2---2---2---2-2-2-2-|
|-----2---------------0-----------|-2---2---2---2---2---2---2-2-2-2-|
|-3-----------3---2-----------2---|-0---0---0---0---0---0---0-0-0-0-|
  1 . + . 2 . + . 3 . + . 4 . + .   1 . + . 2 . + . 3 . + . 4 . + . 
  


[bridge riff]

|-2-------2-----2-2---2---2-------|-3-------------------------------|
|-3-------3-----3-3---3---3-------|-3-------------------------------|
|-2-------2-----2-2---2---2-------|-0-------------------------------|
|-0-------0-----0-0---0---0---0---|-0-------------------------------|
|-----------------------------2---|-2-------------------------------|
|-----------------------------3---|-3-------------------------------|
  1 . + . 2 . + . 3 . + . 4 . + .   1 . + . 2 . + . 3 . + . 4 . + . 

|-2-------2-----2-2---2---2-------|-3-------------------------------|
|-3-------3-----3-3---3---3-------|-3-------------------------------|
|-2-------2-----2-2---2---2-------|-0-------------------------------|
|-0-------0-----0-0---0---0---0---|-0-------------------------------|
|-----------------------------2---|-2-------------------------------|
|-----------------------------3---|-3-------------------------------|
  1 . + . 2 . + . 3 . + . 4 . + .   1 . + . 2 . + . 3 . + . 4 . + . 

|-----2-----------2---------------|-----2-----------2---------------|
|---------3-----------3-----------|---------2-----------2-----------|
|-------------2-----------2-------|-------------3-----------3-------|
|---------------------------------|---------------------------------|
|---------------------------------|---------------------------------|
|---------------------------------|---------------------------------|
  1 . + . 2 . + . 3 . + . 4 . + .   1 . + . 2 . + . 3 . + . 4 . + . 

|-----0---------------------------|
|---------0-------3-h-5-----------|
|-------------0-----------0-------|
|---------------------------------|
|---------------------------------|
|---------------------------------|
  1 . + . 2 . + . 3 . + . 4 . + . 


[first ending]

        |-0-------0-----0-0---0---0-------|
        |-2-------2-----2-3---2---2---x-x-|
        |-2-------2-----2-2---2---2---x-x-|
        |-2-------2-----2-2---2---2---x-x-|
        |-0-------0-----0-0---0---0-------|
        |---------------------------------|
  	  1 . + . 2 . + . 3 . + . 4 . + .  
  	  

[second ending]
  	  
        A (open face - hold and whammy)
  	  
	Bass & drums softly for a few bars.
	
	Then (each for four)
	
	(4 beats each)   (2 beats each)
	0--0--0          0--0
	2--3--2          0--2
	2--2--2          2--2
	2--2--2          2--2
	0--0--0          0--0
	-------          ----
	
	Bring verse riff back in slowly.
  	  

[outro ending]
Not tabbed - slow lead guitar